Bizim Mekan

bizim serbest mekanımızz...(=
 
AnasayfaKayıt OlGiriş yap

Paylaş | 
 

 avril lavigne-so much for my happy ending

Önceki başlık Sonraki başlık Aşağa gitmek 
YazarMesaj
billkoliq
Super Moderator
Super Moderator
avatar

Kadın
Mesaj Sayısı : 86
Dikkat :
Takımınız :
Ruh Halinizz :
Eğlence : dans
Kayıt tarihi : 07/11/08

MesajKonu: avril lavigne-so much for my happy ending   Paz Kas. 09, 2008 3:17 pm

Intro:

E|-----------------------|
B|-7h8--7h8--7-----------|
G|-------------9--7p9--7-|
D|-----------------------|
A|-----------------------|
E|-----------------------|

So Much For My Happy Ending.

Bm G D A
Oh-Oh Oh-Oh Oh-Oh Oh-Oh
Bm G D A
Oh-Oh Oh-Oh Oh-Oh

Bm G D A
E|-0----0----0----0----3----3----3----3----2----2----2----2----0----0----0----
0---|
B|-3----3----3----3----3----3----3----3----3----3----3----3----2----2----2----
2---|
G|---4----4----4----4----0----0----0----0----2----2----2----2----2----2----2---
-2-|
D|-----------------------------------------------------------------------------
---|
A|-----------------------------------------------------------------------------
---|
E|-----------------------------------------------------------------------------
---|

Bm G
Lets talk this over; its not like we're dead.
D A
Was it something i did? Was it something you said?
Bm G
Don't leave me hanging in a city so dead.
D A
Held up so high on such a breakable thread.

G A G A
E|---------0--------------0--------------0--------------0-|
B|-----3-----3--------0-----0--------3-----3--------0-----|
G|---2---2-----2----2---2-----2----2---2-----2----2---2---|
D|--------------------------------------------------------|
A|----------------0-----------------------------0---------|
E|-3-----------------------------3------------------------|


G A
And you were all the things I thought I knew.
G A
And I thought we could be.



G D A
You were everything, everything that I wanted.
G D A
And we were meant to be, supposed to be, but we lost it.
G D A Bm
And all of the memories so close to me just fade away.
Em G
All this time you were pretending, so much for my happy ending.


Bm G D A
Oh-Oh Oh-Oh Oh-Oh Oh-Oh
Bm G D
Oh-Oh Oh-Oh Oh-Oh

A Bm G
You've got your dumb friends, I know what they say.
D A
They tell you I'm difficult, but so are they.
Bm G
But they don't know me, do they even know you?
D A
All the things you hide from me, all the shit that you do.

G A G A
E|---------0--------------0--------------0--------------0---9h10p9----|
B|-----3-----3--------0-----0--------3-----3--------0--------------10-|
G|---2---2-----2----2---2-----2----2---2-----2----2---2---------------|
D|--------------------------------------------------------------------|
A|----------------0-----------------------------0---------------------|
E|-3-----------------------------3------------------------------------|


G A
And you were all the things I thought I knew.
G A
And I thought we could be.



G D A
You were everything, everything that I wanted.
G D A
And we were meant to be, supposed to be, but we lost it.
G D A Bm
And all of the memories so close to me just fade away.
Em G
All this time you were pretending, so much for my happy ending.


A G
It's nice to know that you were there,
A
Thanks for acting like you cared,
G
And making me feel like I was the only one.
A Bm G
It's nice to know we had it all, thanks for watching as I fall,
A
And letting me know we were done.


G D A
He was everything, everything that I wanted.
G D A
And we were meant to be, supposed to be, but we lost it.
G D A Bm
And all of the memories so close to me just fade away.
Em G
All this time you were pretending, so much for my happy ending.


G D A
You were everything, everything that I wanted.
G D A
And we were meant to be, supposed to be, but we lost it.
G D A Bm
And all of the memories so close to me just fade away.
Em G
All this time you were pretending, so much for my happy ending.


Bm G D A
Oh-Oh Oh-Oh Oh-Oh Oh-Oh
Bm G D A
Oh-Oh Oh-Oh Oh-Oh Oh-Oh
Bm G D A G
Oh-Oh Oh-Oh Oh-Oh Oh-Oh

Sarkının sonunda:

E|-2-------|
B|---3-----|
G|-----4---| x4
D|-------4-|
A|---------|
E|---------|
Sayfa başına dön Aşağa gitmek
Kullanıcı profilini gör
N4zz..
Admin
Admin


Kadın
Mesaj Sayısı : 183
Yaş : 21
Nerden : Mars... (=
Lakap : Hiç olmadıı xP
Dikkat :
Takımınız :
Ruh Halinizz :
Kayıt tarihi : 05/11/08

MesajKonu: Geri: avril lavigne-so much for my happy ending   Paz Kas. 09, 2008 3:19 pm

paylaşım için saol Very Happy:D lol!

_________________
GERİ DÖNMEYECEK
Sayfa başına dön Aşağa gitmek
Kullanıcı profilini gör http://bizimmekan.2forum.biz
billkoliq
Super Moderator
Super Moderator
avatar

Kadın
Mesaj Sayısı : 86
Dikkat :
Takımınız :
Ruh Halinizz :
Eğlence : dans
Kayıt tarihi : 07/11/08

MesajKonu: Geri: avril lavigne-so much for my happy ending   Cuma Kas. 14, 2008 6:30 pm

önemli deel lol!
Sayfa başına dön Aşağa gitmek
Kullanıcı profilini gör
Sponsored content




MesajKonu: Geri: avril lavigne-so much for my happy ending   

Sayfa başına dön Aşağa gitmek
 
avril lavigne-so much for my happy ending
Önceki başlık Sonraki başlık Sayfa başına dön 
1 sayfadaki 1 sayfası
 Similar topics
-
» Avril Lavigne Pngleri
» Avril Lavigne videolar...
» Deryck boşanma haberlerine çok kızdı

Bu forumun müsaadesi var:Bu forumdaki mesajlara cevap veremezsiniz
Bizim Mekan :: Müzik :: Gitar Akorları-
Buraya geçin: