Bizim Mekan

bizim serbest mekanımızz...(=
 
AnasayfaKayıt OlGiriş yap

Paylaş | 
 

 Metallica-Orion (bass tab)

Önceki başlık Sonraki başlık Aşağa gitmek 
YazarMesaj
billkoliq
Super Moderator
Super Moderator
avatar

Kadın
Mesaj Sayısı : 86
Dikkat :
Takımınız :
Ruh Halinizz :
Eğlence : dans
Kayıt tarihi : 07/11/08

MesajKonu: Metallica-Orion (bass tab)   Salı Kas. 11, 2008 7:20 pm

||----------------|----------------|----------------|----------------||
||----------------|----------------|9---------------|----------------||
||7---------------|----------------|----------------|9---------------||
||----------------|----------------|----------------|----------------||

Riff 1 X6
||-----------------|----------------|----------------|-----------------||
||:----------------|----------------|----------------|----------------Neutral|
||-7-----7-----7---|7-----7-----7---|5-----5-----5-5-|6-----6-----6-6--||
||---0-0---0-0---0-|--0-0---0-0---0-|--7-7---7-7-----|--7-7---7-7------||

-----------------
|1.2.3. |
||-----------------|----------------|----------------|-----------------||
||:----------------|----------------|----------------|----------------Neutral|
||-p---0-----------|3---------------|p---3-----------|0----------------||
||-----------0-----|----------------|----------0-----|-----------------||

----------------
|4.
|----------------|
|----------------|
|0---------------|
|------0-001-110-|

Riff 2 X4
||-----------------|----------------|----------------|-----------------||
||:----------------|----------------|----------------|----------------Neutral|
||-----0-----2-----|3---------------|----3-----2-----|0----------------||
||-0-00--0000--0000|--00000-001-110-|0-00--0000--0000|--00000-001-110--||

Riff 1 X6
|----------------|----------------|----------------|----------------|
|----------------|----------------|----------------|----------------|
|2-2-2-2-2-2-2-0-|2-2-2-2-2-2-2-0-|0-0-0-0-0-0-0---|------------0-0-|
|----------------|----------------|--------------0-|2-2-2-2-2-2-----|

|----------------|----------------|----------------|----------------|
|----------------|----------------|----------------|----------------|
|2-2-2-2-2-2-2-0-|0-0-0-0-0-0-0---|----------------|----------------|
|----------------|--------------0-|2-2-2-2-2-2-0-0-|0-----0-0-0-0---|

|----------------|----------------|----------------|----------------|
|----------------|----------------|----------------|----------------|
|2-----2-2-2-2-p-|0-----0-0-0-0---|----------------|----------------|
|----------------|----------------|2-----2-2-2-2---|0---------------|
3 & 3 &

Bass Solo
|---|---- 11---9---|--9-----9---|---- 11---9---|--9---------|---- 11---9---|
|-6-|---11- -7---7-|9---9-------|---11- -7---7-|9---9-------|---11- -7---7-|
|-8-|9--- - -------|------7---7-|9--- - -------|------7-----|9--- - -------|
|---|---- - -------|------------|---- - -------|------------|---- - -------|

|--9---------|----- 11---9---|--9--&9999- -|
|9---9---9---|----11- -7---7-|9---9-----119|
|------7---7-|9---- - -------|----------- -|
|------------|----- - -------|----------- -|
S

|---- 11---9---|--9-----9---|---- 11---9---|--9---------|---- 11---9---|
|---11- -7---7-|9---9-------|---11- -7---7-|9---9-------|---11- -7---7-|
|9--- - -------|------7---7-|9--- - -------|------7-----|9--- - -------|
|---- - -------|------------|---- - -------|------------|---- - -------|

&
|--9---------|---- 11---9---|99999996----|
|9---9---9---|---11- -7---7-|--------97--|
|------7---7-|9--- - -------|----------97|
|------------|---- - -------|------------|
S
|---- 11---9---|--9-----9---|---- 11---9---|--9---696---|
|---11- -7---7-|9---9-------|---11- -7---7-|9---9----976|
|9--- - -------|------7---7-|9--- - -------|------------|
|---- - -------|------------|---- - -------|------------|

|---- 11---9---|--9-----9---|---- 11---9-9-|--9-9-976---|
|---11- -7---7-|9---9------7|---11- -7-----|9--------976|
|9--- - -------|------7---7-|9--- - -------|------7-----|
|---- - -------|------------|---- - -------|------------|

|---- 11---9---|--9-----9---|---- 11---9---|--9---------|
|---11- -7---7-|9---9-------|---11- -7---7-|9---9-97----|
|9--- - -------|------7---7-|9--- - -------|--------97-7|
|---- - -------|------------|---- - -------|----------9-|

|---- 11---9---|--9---------|---- 11---9---|------------|
|---11- -7---7-|9---9----976|---11- -7---7-|9-9-9-------|
|9--- - -------|------7-----|9--- - -------|------777777|
|---- - -------|------------|---- - -------|------------|


|---- 11---9---|--9-----9---|---- 11---9---|--9---99996-|
|---11- -7---7-|9---9-------|---11- -7---7-|9---9------9|
|9--- - -------|------7---7-|9--- - -------|------------|
|---- - -------|------------|---- - -------|------------|

& &
|---- 11---9---|--9---------|---- 11---9---|99999996----|
|---11- -7---7-|9---9----976|---11- -7---7-|--------97--|
|9--- - -------|------7-----|9--- - -------|----------97|
|---- - -------|------------|---- - -------|------------|
S S

|---- 11---9---|--9---------|---- 11---9---|111111111111119- -- - |
|---11- -7---7-|9---9-----67|---11- -7---7-|- - - - - - - -119- - |
|9--- - -------|------7--9--|9--- - -------|- - - - - - - -- -12- |
|---- - -------|------------|---- - -------|- - - - - - - -- -- 12|

X4
||------11-- -- - - - |--9----------||
||:---11- -- 14- - - |9--96---76--Neutral|
||-9-9- - -12-- 121112|-----97---7--||
||----- - -- -- - - - |-------------||

||----- - - - -- - 9- |- -- -- - -- - - - -||
||:---- 11- 11-- 11-11|12-129- - -- - - - Neutral|
||-9-912- 12- -12- -- |- -- -11- -- 111411-||
||----- - - - -- - -- |- -- -- 12-12- - - -||

||-- - - -- - - - - - - 9|- - - -- --- - - - - - -||
||:- - - - 11111111- 11-|1212129- 9-- - - - - - Neutral|
||-121212912- - - - 12- -|- - - -11--- - - 111411-||
||-- - - -- - - - - - - -|- - - -- --121212- - - -||

X4 X4
||-------------|-------------||-------------|-------------||
||:------------|------------Neutral|:------------|------------Neutral|
||-------0---0-|------4---4--||-------------|5-55552-2222-||
||-2---2-------|0---0--------||-0-00003-3333|-------------||

|---|----|---|----------------|----------------|---|-------------|---|----- |
|-2-|----|-4-|----------------|----------------|-3-|-------------|-4-|----- |
|-8-|--p-|-4-|0-----------3---|----------------|-4-|3------------|-4-|0---- |
|---|00--|---|------0---------|----------------|---|------0------|---|----- |

||-----------------|----------------|----------------|----------------|
||:----------------|----------------|----------------|----------------|
||-2-2-2-2-2-2-0-p-|2-2-2-2-2-2-5-2-|0-0-0-0-0-0-2-0-|------------0-p-|
||-----------------|----------------|----------------|2-2-2-2-2-2-----|

|----------------|----------------|----------------|-----------------||
|----------------|----------------|----------------|----------------Neutral|
|2-2-2-2-2-2-0-p-|0-0-0-0-0-0-0-p-|------------0-p-|-----------------||
|----------------|----------------|2-2-2-2-2-2-----|0-0-0-0-0-0-0-p--||

Riff 2
Sayfa başına dön Aşağa gitmek
Kullanıcı profilini gör
 
Metallica-Orion (bass tab)
Önceki başlık Sonraki başlık Sayfa başına dön 
1 sayfadaki 1 sayfası
 Similar topics
-
» Chuck Bass Resimleri

Bu forumun müsaadesi var:Bu forumdaki mesajlara cevap veremezsiniz
Bizim Mekan :: Müzik :: Gitar Akorları-
Buraya geçin: