Bizim Mekan

bizim serbest mekanımızz...(=
 
AnasayfaKayıt OlGiriş yap

Paylaş | 
 

 Mor ve ötesi- Aşk içinde (tab)

Önceki başlık Sonraki başlık Aşağa gitmek 
YazarMesaj
billkoliq
Super Moderator
Super Moderator
avatar

Kadın
Mesaj Sayısı : 86
Dikkat :
Takımınız :
Ruh Halinizz :
Eğlence : dans
Kayıt tarihi : 07/11/08

MesajKonu: Mor ve ötesi- Aşk içinde (tab)   Salı Kas. 11, 2008 7:23 pm

-----------------------------------------------
----------------------------------------------
----------------------------------------------
----------------------------------------------
--2-2 -4-2---4-5-------2-2--4-2-----4-2-------
----------------------------------------------


-----------------------------------------------
-----------------------------------------------
-----------------------------------------------
-----------------------------------------------
----2-2-----4-2---4-5------2-2----9--7--5--4---
-----------------------------------------------


----------------------------------------------
----------------------------------------------
----------------------------------------------
----------------------------------------------
--2-2 -4-2---4-5-------2-2--4-2-----4-2-------
----------------------------------------------



-------------------------------------------------
-------------------------------------------------
-------------------------------------------------
-------------------------------------------------
---0---2-2-----4-2---4-9------2-2-----4-2---4-10-
-------------------------------------------------
Sayfa başına dön Aşağa gitmek
Kullanıcı profilini gör
N4zz..
Admin
Admin


Kadın
Mesaj Sayısı : 183
Yaş : 22
Nerden : Mars... (=
Lakap : Hiç olmadıı xP
Dikkat :
Takımınız :
Ruh Halinizz :
Kayıt tarihi : 05/11/08

MesajKonu: Geri: Mor ve ötesi- Aşk içinde (tab)   Perş. Kas. 13, 2008 8:42 pm

paylaşım için saol .. Smile

_________________
GERİ DÖNMEYECEK
Sayfa başına dön Aşağa gitmek
Kullanıcı profilini gör http://bizimmekan.2forum.biz
billkoliq
Super Moderator
Super Moderator
avatar

Kadın
Mesaj Sayısı : 86
Dikkat :
Takımınız :
Ruh Halinizz :
Eğlence : dans
Kayıt tarihi : 07/11/08

MesajKonu: hh   Cuma Kas. 14, 2008 6:28 pm

bijiycik deel
Sayfa başına dön Aşağa gitmek
Kullanıcı profilini gör
Sponsored content




MesajKonu: Geri: Mor ve ötesi- Aşk içinde (tab)   

Sayfa başına dön Aşağa gitmek
 
Mor ve ötesi- Aşk içinde (tab)
Önceki başlık Sonraki başlık Sayfa başına dön 
1 sayfadaki 1 sayfası
 Similar topics
-
» RAdyoBOyKO Çatırtı Party 24 kasım c.tesi İzmir Sarnıçta
» Tevrat böyle yazıyor
» Taylor Lautner Takım elbise içinde CFDA Ödüllerinde..

Bu forumun müsaadesi var:Bu forumdaki mesajlara cevap veremezsiniz
Bizim Mekan :: Müzik :: Gitar Akorları-
Buraya geçin: